ISO-10303-21;
HEADER;
FILE_DESCRIPTION (( 'STEP AP203' ),
    '1' );
FILE_NAME ('Q-QZWP-R4-10-1550-M.STEP',
    '2020-12-23T01:21:19',
    ( '' ),
    ( '' ),
    'SwSTEP 2.0',
    'SolidWorks 2020',
    '' );
FILE_SCHEMA (( 'CONFIG_CONTROL_DESIGN' ));
ENDSEC;

DATA;
#1 = PERSON_AND_ORGANIZATION_ROLE ( 'creator' ) ;
#2 = ORIENTED_EDGE ( 'NONE', *, *, #153, .T. ) ;
#3 = CARTESIAN_POINT ( 'NONE',  ( -3.000000000000000000, 0.000000000000000000, 0.000000000000000000 ) ) ;
#4 = ORIENTED_EDGE ( 'NONE', *, *, #57, .T. ) ;
#5 = CIRCLE ( 'NONE', #40, 5.000000000000000000 ) ;
#6 = CARTESIAN_POINT ( 'NONE',  ( 1.250000000000000222, 5.000000000000000000, 0.000000000000000000 ) ) ;
#7 = ORIENTED_EDGE ( 'NONE', *, *, #291, .F. ) ;
#8 = DIRECTION ( 'NONE',  ( 0.000000000000000000, 0.000000000000000000, -1.000000000000000000 ) ) ;
#9 = CARTESIAN_POINT ( 'NONE',  ( -3.000000000000000000, 0.000000000000000000, 0.000000000000000000 ) ) ;
#10 = EDGE_CURVE ( 'NONE', #54, #331, #179, .T. ) ;
#11 = CC_DESIGN_PERSON_AND_ORGANIZATION_ASSIGNMENT ( #278, #303, ( #290 ) ) ;
#12 = COORDINATED_UNIVERSAL_TIME_OFFSET ( 8, 0, .AHEAD. ) ;
#13 = VECTOR ( 'NONE', #126, 1000.000000000000000 ) ;
#14 = CARTESIAN_POINT ( 'NONE',  ( -1.614212418857619014, 0.000000000000000000, 0.000000000000000000 ) ) ;
#15 = APPLICATION_CONTEXT ( 'configuration controlled 3d designs of mechanical parts and assemblies' ) ;
#16 = CARTESIAN_POINT ( 'NONE',  ( -1.614212418857619014, 0.000000000000000000, 5.000000000000000888 ) ) ;
#17 = CIRCLE ( 'NONE', #297, 5.000000000000000000 ) ;
#18 = FACE_OUTER_BOUND ( 'NONE', #84, .T. ) ;
#19 = ORIENTED_EDGE ( 'NONE', *, *, #274, .F. ) ;
#20 = DIRECTION ( 'NONE',  ( -1.000000000000000000, -0.000000000000000000, -0.000000000000000000 ) ) ;
#21 = CARTESIAN_POINT ( 'NONE',  ( -3.000000000000000000, 0.000000000000000000, 5.000000000000000000 ) ) ;
#22 = APPROVAL_PERSON_ORGANIZATION ( #252, #302, #225 ) ;
#23 = CARTESIAN_POINT ( 'NONE',  ( -1.614212418857619014, 0.000000000000000000, 12.69999999999999929 ) ) ;
#24 = ORIENTED_EDGE ( 'NONE', *, *, #191, .T. ) ;
#25 = APPROVAL_ROLE ( '' ) ;
#26 = ORIENTED_EDGE ( 'NONE', *, *, #153, .F. ) ;
#27 = DATE_AND_TIME ( #204, #122 ) ;
#28 = CARTESIAN_POINT ( 'NONE',  ( -3.000000000000000000, 0.000000000000000000, 0.000000000000000000 ) ) ;
#29 = EDGE_LOOP ( 'NONE', ( #78, #120, #181, #287 ) ) ;
#30 = VECTOR ( 'NONE', #64, 1000.000000000000000 ) ;
#31 = CIRCLE ( 'NONE', #85, 12.69999999999999929 ) ;
#32 = DIRECTION ( 'NONE',  ( 0.000000000000000000, 0.000000000000000000, 1.000000000000000000 ) ) ;
#33 = EDGE_CURVE ( 'NONE', #176, #219, #44, .T. ) ;
#34 = LINE ( 'NONE', #130, #59 ) ;
#35 = ADVANCED_FACE ( 'NONE', ( #137 ), #109, .F. ) ;
#36 = APPROVAL_STATUS ( 'not_yet_approved' ) ;
#37 = DIRECTION ( 'NONE',  ( -1.000000000000000000, -0.000000000000000000, -0.000000000000000000 ) ) ;
#38 = EDGE_CURVE ( 'NONE', #54, #176, #247, .T. ) ;
#39 = CARTESIAN_POINT ( 'NONE',  ( -1.614212418857619014, 1.555301434917138433E-15, -12.69999999999999929 ) ) ;
#40 = AXIS2_PLACEMENT_3D ( 'NONE', #9, #182, #162 ) ;
#41 = CARTESIAN_POINT ( 'NONE',  ( -1.614212418857619014, 0.000000000000000000, 0.000000000000000000 ) ) ;
#42 = APPROVAL ( #36, 'UNSPECIFIED' ) ;
#43 = DIRECTION ( 'NONE',  ( -1.000000000000000000, -0.000000000000000000, -0.000000000000000000 ) ) ;
#44 = CIRCLE ( 'NONE', #75, 5.000000000000000000 ) ;
#45 = PLANE ( 'NONE',  #69 ) ;
#46 = EDGE_LOOP ( 'NONE', ( #102, #160 ) ) ;
#47 = DIRECTION ( 'NONE',  ( 0.000000000000000000, 0.000000000000000000, -1.000000000000000000 ) ) ;
#48 = EDGE_CURVE ( 'NONE', #68, #98, #270, .T. ) ;
#49 = CARTESIAN_POINT ( 'NONE',  ( -1.250000000000000222, 0.000000000000000000, 0.000000000000000000 ) ) ;
#50 = DIRECTION ( 'NONE',  ( -1.000000000000000000, -0.000000000000000000, -0.000000000000000000 ) ) ;
#51 = VECTOR ( 'NONE', #37, 1000.000000000000000 ) ;
#52 = ORIENTED_EDGE ( 'NONE', *, *, #260, .T. ) ;
#53 = ORIENTED_EDGE ( 'NONE', *, *, #10, .T. ) ;
#54 = VERTEX_POINT ( 'NONE', #322 ) ;
#55 = CIRCLE ( 'NONE', #223, 5.000000000000001776 ) ;
#56 = ADVANCED_FACE ( 'NONE', ( #301, #272 ), #248, .F. ) ;
#57 = EDGE_CURVE ( 'NONE', #331, #54, #55, .T. ) ;
#58 = LOCAL_TIME ( 9, 21, 19.00000000000000000, #12 ) ;
#59 = VECTOR ( 'NONE', #107, 1000.000000000000000 ) ;
#60 = ADVANCED_FACE ( 'NONE', ( #123, #309 ), #305, .F. ) ;
#61 = CC_DESIGN_APPROVAL ( #302, ( #173 ) ) ;
#62 = SECURITY_CLASSIFICATION_LEVEL ( 'unclassified' ) ;
#63 = ADVANCED_FACE ( 'NONE', ( #211 ), #148, .F. ) ;
#64 = DIRECTION ( 'NONE',  ( -1.000000000000000000, -0.000000000000000000, -0.000000000000000000 ) ) ;
#65 = CC_DESIGN_PERSON_AND_ORGANIZATION_ASSIGNMENT ( #140, #180, ( #178 ) ) ;
#66 = DIRECTION ( 'NONE',  ( 0.000000000000000000, 0.000000000000000000, 1.000000000000000000 ) ) ;
#67 = DIRECTION ( 'NONE',  ( -1.000000000000000000, -0.000000000000000000, -0.000000000000000000 ) ) ;
#68 = VERTEX_POINT ( 'NONE', #73 ) ;
#69 = AXIS2_PLACEMENT_3D ( 'NONE', #175, #96, #47 ) ;
#70 = CYLINDRICAL_SURFACE ( 'NONE', #296, 12.69999999999999929 ) ;
#71 = CIRCLE ( 'NONE', #161, 5.000000000000000888 ) ;
#72 = CARTESIAN_POINT ( 'NONE',  ( -3.000000000000000000, 0.000000000000000000, 0.000000000000000000 ) ) ;
#73 = CARTESIAN_POINT ( 'NONE',  ( 3.000000000000000000, 1.555301434917138433E-15, -12.69999999999999929 ) ) ;
#74 = CARTESIAN_POINT ( 'NONE',  ( 3.000000000000000000, 6.123233995736768255E-16, -5.000000000000001776 ) ) ;
#75 = AXIS2_PLACEMENT_3D ( 'NONE', #155, #43, #32 ) ;
#76 = EDGE_LOOP ( 'NONE', ( #53, #4 ) ) ;
#77 = DIRECTION ( 'NONE',  ( -0.000000000000000000, 0.000000000000000000, 1.000000000000000000 ) ) ;
#78 = ORIENTED_EDGE ( 'NONE', *, *, #300, .F. ) ;
#79 = DIRECTION ( 'NONE',  ( 1.000000000000000000, 0.000000000000000000, 0.000000000000000000 ) ) ;
#80 = ORIENTED_EDGE ( 'NONE', *, *, #220, .T. ) ;
#81 = ORIENTED_EDGE ( 'NONE', *, *, #224, .T. ) ;
#82 = DIRECTION ( 'NONE',  ( -1.000000000000000000, -0.000000000000000000, -0.000000000000000000 ) ) ;
#83 = CARTESIAN_POINT ( 'NONE',  ( -1.614212418857619014, 0.000000000000000000, 0.000000000000000000 ) ) ;
#84 = EDGE_LOOP ( 'NONE', ( #306, #81, #52, #317 ) ) ;
#85 = AXIS2_PLACEMENT_3D ( 'NONE', #72, #279, #332 ) ;
#86 = APPROVAL_DATE_TIME ( #142, #103 ) ;
#87 = CC_DESIGN_DATE_AND_TIME_ASSIGNMENT ( #116, #163, ( #276 ) ) ;
#88 = CC_DESIGN_APPROVAL ( #103, ( #276 ) ) ;
#89 = APPROVAL_DATE_TIME ( #27, #302 ) ;
#90 = CARTESIAN_POINT ( 'NONE',  ( -1.250000000000000222, 0.000000000000000000, 5.000000000000000888 ) ) ;
#91 = CARTESIAN_POINT ( 'NONE',  ( -1.250000000000000222, 0.000000000000000000, 0.000000000000000000 ) ) ;
#92 = DIRECTION ( 'NONE',  ( -1.000000000000000000, -0.000000000000000000, -0.000000000000000000 ) ) ;
#93 = APPLICATION_CONTEXT ( 'configuration controlled 3d designs of mechanical parts and assemblies' ) ;
#94 = DIRECTION ( 'NONE',  ( -1.000000000000000000, -0.000000000000000000, -0.000000000000000000 ) ) ;
#95 = APPROVAL_PERSON_ORGANIZATION ( #192, #42, #168 ) ;
#96 = DIRECTION ( 'NONE',  ( 1.000000000000000000, 0.000000000000000000, 0.000000000000000000 ) ) ;
#97 = AXIS2_PLACEMENT_3D ( 'NONE', #6, #263, #77 ) ;
#98 = VERTEX_POINT ( 'NONE', #285 ) ;
#99 = DIRECTION ( 'NONE',  ( -1.000000000000000000, -0.000000000000000000, -0.000000000000000000 ) ) ;
#100 = DATE_TIME_ROLE ( 'classification_date' ) ;
#101 =( LENGTH_UNIT ( ) NAMED_UNIT ( * ) SI_UNIT ( .MILLI., .METRE. ) );
#102 = ORIENTED_EDGE ( 'NONE', *, *, #202, .F. ) ;
#103 = APPROVAL ( #261, 'UNSPECIFIED' ) ;
#104 = DIRECTION ( 'NONE',  ( 0.000000000000000000, 0.000000000000000000, 1.000000000000000000 ) ) ;
#105 =( GEOMETRIC_REPRESENTATION_CONTEXT ( 3 ) GLOBAL_UNCERTAINTY_ASSIGNED_CONTEXT ( ( #280 ) ) GLOBAL_UNIT_ASSIGNED_CONTEXT ( ( #101, #154, #312 ) ) REPRESENTATION_CONTEXT ( 'NONE', 'WORKASPACE' ) );
#106 = ORIENTED_EDGE ( 'NONE', *, *, #291, .T. ) ;
#107 = DIRECTION ( 'NONE',  ( -1.000000000000000000, -0.000000000000000000, -0.000000000000000000 ) ) ;
#108 = MECHANICAL_CONTEXT ( 'NONE', #15, 'mechanical' ) ;
#109 = CYLINDRICAL_SURFACE ( 'NONE', #201, 5.000000000000000888 ) ;
#110 = PERSON_AND_ORGANIZATION ( #246, #174 ) ;
#111 = DIRECTION ( 'NONE',  ( 1.000000000000000000, 0.000000000000000000, 0.000000000000000000 ) ) ;
#112 = AXIS2_PLACEMENT_3D ( 'NONE', #324, #111, #196 ) ;
#113 = ADVANCED_FACE ( 'NONE', ( #281 ), #45, .F. ) ;
#114 = CIRCLE ( 'NONE', #323, 5.000000000000000888 ) ;
#115 = CALENDAR_DATE ( 2020, 23, 12 ) ;
#116 = DATE_AND_TIME ( #115, #58 ) ;
#117 = COORDINATED_UNIVERSAL_TIME_OFFSET ( 8, 0, .AHEAD. ) ;
#118 = ADVANCED_BREP_SHAPE_REPRESENTATION ( 'Q-QZWP-R4-10-1550-M', ( #208, #147 ), #105 ) ;
#119 = DIRECTION ( 'NONE',  ( -1.000000000000000000, 0.000000000000000000, -0.000000000000000000 ) ) ;
#120 = ORIENTED_EDGE ( 'NONE', *, *, #10, .F. ) ;
#121 = CARTESIAN_POINT ( 'NONE',  ( 3.000000000000000000, 0.000000000000000000, 0.000000000000000000 ) ) ;
#122 = LOCAL_TIME ( 9, 21, 19.00000000000000000, #158 ) ;
#123 = FACE_OUTER_BOUND ( 'NONE', #316, .T. ) ;
#124 = ORIENTED_EDGE ( 'NONE', *, *, #321, .T. ) ;
#125 = ORIENTED_EDGE ( 'NONE', *, *, #198, .T. ) ;
#126 = DIRECTION ( 'NONE',  ( -1.000000000000000000, -0.000000000000000000, -0.000000000000000000 ) ) ;
#127 = CARTESIAN_POINT ( 'NONE',  ( 3.000000000000000000, 0.000000000000000000, 0.000000000000000000 ) ) ;
#128 = CARTESIAN_POINT ( 'NONE',  ( 3.000000000000000000, 12.69999999999999929, 0.000000000000000000 ) ) ;
#129 = DATE_AND_TIME ( #177, #275 ) ;
#130 = CARTESIAN_POINT ( 'NONE',  ( -1.614212418857619014, 6.123233995736767268E-16, -5.000000000000000888 ) ) ;
#131 = CC_DESIGN_DATE_AND_TIME_ASSIGNMENT ( #289, #100, ( #173 ) ) ;
#132 = ORIENTED_EDGE ( 'NONE', *, *, #315, .T. ) ;
#133 = COORDINATED_UNIVERSAL_TIME_OFFSET ( 8, 0, .AHEAD. ) ;
#134 = VERTEX_POINT ( 'NONE', #258 ) ;
#135 = COORDINATED_UNIVERSAL_TIME_OFFSET ( 8, 0, .AHEAD. ) ;
#136 = CYLINDRICAL_SURFACE ( 'NONE', #232, 5.000000000000000888 ) ;
#137 = FACE_OUTER_BOUND ( 'NONE', #264, .T. ) ;
#138 = CIRCLE ( 'NONE', #255, 12.69999999999999929 ) ;
#139 = ORIENTED_EDGE ( 'NONE', *, *, #274, .T. ) ;
#140 = PERSON_AND_ORGANIZATION ( #246, #174 ) ;
#141 = CALENDAR_DATE ( 2020, 23, 12 ) ;
#142 = DATE_AND_TIME ( #141, #282 ) ;
#143 = CIRCLE ( 'NONE', #188, 5.000000000000000000 ) ;
#144 = FACE_OUTER_BOUND ( 'NONE', #257, .T. ) ;
#145 = PERSON_AND_ORGANIZATION_ROLE ( 'classification_officer' ) ;
#146 = CARTESIAN_POINT ( 'NONE',  ( 3.000000000000000000, 0.000000000000000000, 12.69999999999999929 ) ) ;
#147 = AXIS2_PLACEMENT_3D ( 'NONE', #298, #243, #213 ) ;
#148 = CYLINDRICAL_SURFACE ( 'NONE', #172, 5.000000000000000888 ) ;
#149 = ORIENTED_EDGE ( 'NONE', *, *, #220, .F. ) ;
#150 = CARTESIAN_POINT ( 'NONE',  ( -1.614212418857619014, 6.123233995736767268E-16, -5.000000000000000888 ) ) ;
#151 = EDGE_LOOP ( 'NONE', ( #2, #262, #237, #207 ) ) ;
#152 = DIRECTION ( 'NONE',  ( 1.000000000000000000, 0.000000000000000000, 0.000000000000000000 ) ) ;
#153 = EDGE_CURVE ( 'NONE', #214, #68, #265, .T. ) ;
#154 =( NAMED_UNIT ( * ) PLANE_ANGLE_UNIT ( ) SI_UNIT ( $, .RADIAN. ) );
#155 = CARTESIAN_POINT ( 'NONE',  ( 1.250000000000000444, 0.000000000000000000, 0.000000000000000000 ) ) ;
#156 = PERSON_AND_ORGANIZATION ( #246, #174 ) ;
#157 = ORIENTED_EDGE ( 'NONE', *, *, #224, .F. ) ;
#158 = COORDINATED_UNIVERSAL_TIME_OFFSET ( 8, 0, .AHEAD. ) ;
#159 = FACE_OUTER_BOUND ( 'NONE', #293, .T. ) ;
#160 = ORIENTED_EDGE ( 'NONE', *, *, #239, .F. ) ;
#161 = AXIS2_PLACEMENT_3D ( 'NONE', #91, #79, #8 ) ;
#162 = DIRECTION ( 'NONE',  ( 0.000000000000000000, 0.000000000000000000, 1.000000000000000000 ) ) ;
#163 = DATE_TIME_ROLE ( 'creation_date' ) ;
#164 = CC_DESIGN_PERSON_AND_ORGANIZATION_ASSIGNMENT ( #238, #1, ( #290 ) ) ;
#165 = CARTESIAN_POINT ( 'NONE',  ( -1.614212418857619014, 0.000000000000000000, 0.000000000000000000 ) ) ;
#166 = ADVANCED_FACE ( 'NONE', ( #18 ), #70, .T. ) ;
#167 = CARTESIAN_POINT ( 'NONE',  ( 3.000000000000000000, 0.000000000000000000, 0.000000000000000000 ) ) ;
#168 = APPROVAL_ROLE ( '' ) ;
#169 = CARTESIAN_POINT ( 'NONE',  ( -1.614212418857619014, 0.000000000000000000, 0.000000000000000000 ) ) ;
#170 = DIRECTION ( 'NONE',  ( -1.000000000000000000, -0.000000000000000000, -0.000000000000000000 ) ) ;
#171 = VERTEX_POINT ( 'NONE', #90 ) ;
#172 = AXIS2_PLACEMENT_3D ( 'NONE', #41, #170, #327 ) ;
#173 = SECURITY_CLASSIFICATION ( '', '', #62 ) ;
#174 = ORGANIZATION ( 'UNSPECIFIED', 'UNSPECIFIED', '' ) ;
#175 = CARTESIAN_POINT ( 'NONE',  ( -1.250000000000000222, 5.000000000000000000, 0.000000000000000000 ) ) ;
#176 = VERTEX_POINT ( 'NONE', #304 ) ;
#177 = CALENDAR_DATE ( 2020, 23, 12 ) ;
#178 = PRODUCT ( 'Q-QZWP-R4-10-1550-M', 'Q-QZWP-R4-10-1550-M', '', ( #108 ) ) ;
#179 = CIRCLE ( 'NONE', #194, 5.000000000000001776 ) ;
#180 = PERSON_AND_ORGANIZATION_ROLE ( 'design_owner' ) ;
#181 = ORIENTED_EDGE ( 'NONE', *, *, #38, .T. ) ;
#182 = DIRECTION ( 'NONE',  ( -1.000000000000000000, -0.000000000000000000, -0.000000000000000000 ) ) ;
#183 = VERTEX_POINT ( 'NONE', #203 ) ;
#184 = CARTESIAN_POINT ( 'NONE',  ( 1.250000000000000444, 0.000000000000000000, 0.000000000000000000 ) ) ;
#185 = DIRECTION ( 'NONE',  ( -1.000000000000000000, -0.000000000000000000, -0.000000000000000000 ) ) ;
#186 = CLOSED_SHELL ( 'NONE', ( #187, #35, #63, #273, #249, #190, #56, #166, #60, #113 ) ) ;
#187 = ADVANCED_FACE ( 'NONE', ( #226 ), #329, .T. ) ;
#188 = AXIS2_PLACEMENT_3D ( 'NONE', #3, #50, #104 ) ;
#189 = DIRECTION ( 'NONE',  ( 0.000000000000000000, 0.000000000000000000, 1.000000000000000000 ) ) ;
#190 = ADVANCED_FACE ( 'NONE', ( #144 ), #250, .F. ) ;
#191 = EDGE_CURVE ( 'NONE', #134, #313, #259, .T. ) ;
#192 = PERSON_AND_ORGANIZATION ( #246, #174 ) ;
#193 = DIRECTION ( 'NONE',  ( 0.000000000000000000, 0.000000000000000000, 1.000000000000000000 ) ) ;
#194 = AXIS2_PLACEMENT_3D ( 'NONE', #127, #92, #335 ) ;
#195 = APPROVAL_PERSON_ORGANIZATION ( #156, #103, #25 ) ;
#196 = DIRECTION ( 'NONE',  ( 0.000000000000000000, 0.000000000000000000, -1.000000000000000000 ) ) ;
#197 = CALENDAR_DATE ( 2020, 23, 12 ) ;
#198 = EDGE_CURVE ( 'NONE', #98, #183, #31, .T. ) ;
#199 = DIRECTION ( 'NONE',  ( -1.000000000000000000, -0.000000000000000000, -0.000000000000000000 ) ) ;
#200 = CC_DESIGN_SECURITY_CLASSIFICATION ( #173, ( #290 ) ) ;
#201 = AXIS2_PLACEMENT_3D ( 'NONE', #165, #199, #193 ) ;
#202 = EDGE_CURVE ( 'NONE', #171, #134, #114, .T. ) ;
#203 = CARTESIAN_POINT ( 'NONE',  ( -3.000000000000000000, 0.000000000000000000, 12.69999999999999929 ) ) ;
#204 = CALENDAR_DATE ( 2020, 23, 12 ) ;
#205 = DIRECTION ( 'NONE',  ( 0.000000000000000000, 0.000000000000000000, 1.000000000000000000 ) ) ;
#206 = VERTEX_POINT ( 'NONE', #21 ) ;
#207 = ORIENTED_EDGE ( 'NONE', *, *, #260, .F. ) ;
#208 = MANIFOLD_SOLID_BREP ( 'Ðý×', #186 ) ;
#209 = DIRECTION ( 'NONE',  ( 0.000000000000000000, 0.000000000000000000, 1.000000000000000000 ) ) ;
#210 = VECTOR ( 'NONE', #334, 1000.000000000000000 ) ;
#211 = FACE_OUTER_BOUND ( 'NONE', #284, .T. ) ;
#212 = DIRECTION ( 'NONE',  ( 0.000000000000000000, 0.000000000000000000, -1.000000000000000000 ) ) ;
#213 = DIRECTION ( 'NONE',  ( 1.000000000000000000, 0.000000000000000000, 0.000000000000000000 ) ) ;
#214 = VERTEX_POINT ( 'NONE', #146 ) ;
#215 = APPROVAL_STATUS ( 'not_yet_approved' ) ;
#216 = PRODUCT_DEFINITION_SHAPE ( 'NONE', 'NONE',  #276 ) ;
#217 = AXIS2_PLACEMENT_3D ( 'NONE', #121, #228, #328 ) ;
#218 = LINE ( 'NONE', #23, #333 ) ;
#219 = VERTEX_POINT ( 'NONE', #233 ) ;
#220 = EDGE_CURVE ( 'NONE', #171, #206, #310, .T. ) ;
#221 = EDGE_LOOP ( 'NONE', ( #288, #7 ) ) ;
#222 = DIRECTION ( 'NONE',  ( -1.000000000000000000, -0.000000000000000000, -0.000000000000000000 ) ) ;
#223 = AXIS2_PLACEMENT_3D ( 'NONE', #167, #67, #205 ) ;
#224 = EDGE_CURVE ( 'NONE', #68, #214, #283, .T. ) ;
#225 = APPROVAL_ROLE ( '' ) ;
#226 = FACE_OUTER_BOUND ( 'NONE', #151, .T. ) ;
#227 = CC_DESIGN_PERSON_AND_ORGANIZATION_ASSIGNMENT ( #110, #269, ( #276 ) ) ;
#228 = DIRECTION ( 'NONE',  ( -1.000000000000000000, -0.000000000000000000, -0.000000000000000000 ) ) ;
#229 = DIRECTION ( 'NONE',  ( 0.000000000000000000, 0.000000000000000000, 1.000000000000000000 ) ) ;
#230 = ORIENTED_EDGE ( 'NONE', *, *, #202, .T. ) ;
#231 = DIRECTION ( 'NONE',  ( -0.000000000000000000, 0.000000000000000000, 1.000000000000000000 ) ) ;
#232 = AXIS2_PLACEMENT_3D ( 'NONE', #83, #185, #244 ) ;
#233 = CARTESIAN_POINT ( 'NONE',  ( 1.250000000000000444, 6.123233995736766282E-16, -5.000000000000000000 ) ) ;
#234 = ORIENTED_EDGE ( 'NONE', *, *, #191, .F. ) ;
#235 = APPROVAL_DATE_TIME ( #129, #42 ) ;
#236 = EDGE_LOOP ( 'NONE', ( #124, #125 ) ) ;
#237 = ORIENTED_EDGE ( 'NONE', *, *, #321, .F. ) ;
#238 = PERSON_AND_ORGANIZATION ( #246, #174 ) ;
#239 = EDGE_CURVE ( 'NONE', #134, #171, #71, .T. ) ;
#240 = AXIS2_PLACEMENT_3D ( 'NONE', #169, #94, #209 ) ;
#241 = PLANE ( 'NONE',  #97 ) ;
#242 = ORIENTED_EDGE ( 'NONE', *, *, #57, .F. ) ;
#243 = DIRECTION ( 'NONE',  ( 0.000000000000000000, 0.000000000000000000, 1.000000000000000000 ) ) ;
#244 = DIRECTION ( 'NONE',  ( 0.000000000000000000, 0.000000000000000000, 1.000000000000000000 ) ) ;
#245 = PRODUCT_RELATED_PRODUCT_CATEGORY ( 'detail', '', ( #178 ) ) ;
#246 = PERSON ( 'UNSPECIFIED', 'UNSPECIFIED', 'UNSPECIFIED', ('UNSPECIFIED'), ('UNSPECIFIED'), ('UNSPECIFIED') ) ;
#247 = LINE ( 'NONE', #299, #30 ) ;
#248 = PLANE ( 'NONE',  #112 ) ;
#249 = ADVANCED_FACE ( 'NONE', ( #314 ), #136, .F. ) ;
#250 = CYLINDRICAL_SURFACE ( 'NONE', #267, 5.000000000000000888 ) ;
#251 = CC_DESIGN_PERSON_AND_ORGANIZATION_ASSIGNMENT ( #277, #145, ( #173 ) ) ;
#252 = PERSON_AND_ORGANIZATION ( #246, #174 ) ;
#253 = DIRECTION ( 'NONE',  ( 0.000000000000000000, 0.000000000000000000, 1.000000000000000000 ) ) ;
#254 = AXIS2_PLACEMENT_3D ( 'NONE', #128, #119, #231 ) ;
#255 = AXIS2_PLACEMENT_3D ( 'NONE', #28, #82, #320 ) ;
#256 = CARTESIAN_POINT ( 'NONE',  ( 3.000000000000000000, 0.000000000000000000, 0.000000000000000000 ) ) ;
#257 = EDGE_LOOP ( 'NONE', ( #234, #330, #80, #132 ) ) ;
#258 = CARTESIAN_POINT ( 'NONE',  ( -1.250000000000000222, 6.123233995736767268E-16, -5.000000000000000888 ) ) ;
#259 = LINE ( 'NONE', #150, #13 ) ;
#260 = EDGE_CURVE ( 'NONE', #214, #183, #218, .T. ) ;
#261 = APPROVAL_STATUS ( 'not_yet_approved' ) ;
#262 = ORIENTED_EDGE ( 'NONE', *, *, #48, .T. ) ;
#263 = DIRECTION ( 'NONE',  ( -1.000000000000000000, 0.000000000000000000, -0.000000000000000000 ) ) ;
#264 = EDGE_LOOP ( 'NONE', ( #230, #24, #106, #149 ) ) ;
#265 = CIRCLE ( 'NONE', #308, 12.69999999999999929 ) ;
#266 = LOCAL_TIME ( 9, 21, 19.00000000000000000, #135 ) ;
#267 = AXIS2_PLACEMENT_3D ( 'NONE', #14, #307, #253 ) ;
#268 = APPLICATION_PROTOCOL_DEFINITION ( 'international standard', 'config_control_design', 1994, #15 ) ;
#269 = PERSON_AND_ORGANIZATION_ROLE ( 'creator' ) ;
#270 = LINE ( 'NONE', #39, #51 ) ;
#271 = CC_DESIGN_APPROVAL ( #42, ( #290 ) ) ;
#272 = FACE_OUTER_BOUND ( 'NONE', #236, .T. ) ;
#273 = ADVANCED_FACE ( 'NONE', ( #159 ), #241, .F. ) ;
#274 = EDGE_CURVE ( 'NONE', #219, #176, #17, .T. ) ;
#275 = LOCAL_TIME ( 9, 21, 19.00000000000000000, #117 ) ;
#276 = PRODUCT_DEFINITION ( 'UNKNOWN', '', #290, #325 ) ;
#277 = PERSON_AND_ORGANIZATION ( #246, #174 ) ;
#278 = PERSON_AND_ORGANIZATION ( #246, #174 ) ;
#279 = DIRECTION ( 'NONE',  ( -1.000000000000000000, -0.000000000000000000, -0.000000000000000000 ) ) ;
#280 = UNCERTAINTY_MEASURE_WITH_UNIT (LENGTH_MEASURE( 1.000000000000000082E-05 ), #101, 'distance_accuracy_value', 'NONE');
#281 = FACE_OUTER_BOUND ( 'NONE', #46, .T. ) ;
#282 = LOCAL_TIME ( 9, 21, 19.00000000000000000, #133 ) ;
#283 = CIRCLE ( 'NONE', #217, 12.69999999999999929 ) ;
#284 = EDGE_LOOP ( 'NONE', ( #242, #294, #139, #318 ) ) ;
#285 = CARTESIAN_POINT ( 'NONE',  ( -3.000000000000000000, 1.555301434917138433E-15, -12.69999999999999929 ) ) ;
#286 = CARTESIAN_POINT ( 'NONE',  ( -1.614212418857619014, 0.000000000000000000, 0.000000000000000000 ) ) ;
#287 = ORIENTED_EDGE ( 'NONE', *, *, #33, .T. ) ;
#288 = ORIENTED_EDGE ( 'NONE', *, *, #315, .F. ) ;
#289 = DATE_AND_TIME ( #197, #266 ) ;
#290 = PRODUCT_DEFINITION_FORMATION_WITH_SPECIFIED_SOURCE ( 'ANY', '', #178, .NOT_KNOWN. ) ;
#291 = EDGE_CURVE ( 'NONE', #313, #206, #143, .T. ) ;
#292 = APPLICATION_PROTOCOL_DEFINITION ( 'international standard', 'config_control_design', 1994, #93 ) ;
#293 = EDGE_LOOP ( 'NONE', ( #311, #19 ) ) ;
#294 = ORIENTED_EDGE ( 'NONE', *, *, #300, .T. ) ;
#295 = CARTESIAN_POINT ( 'NONE',  ( -3.000000000000000000, 6.123233995736766282E-16, -5.000000000000000000 ) ) ;
#296 = AXIS2_PLACEMENT_3D ( 'NONE', #286, #20, #229 ) ;
#297 = AXIS2_PLACEMENT_3D ( 'NONE', #184, #319, #189 ) ;
#298 = CARTESIAN_POINT ( 'NONE',  ( 0.000000000000000000, 0.000000000000000000, 0.000000000000000000 ) ) ;
#299 = CARTESIAN_POINT ( 'NONE',  ( -1.614212418857619014, 0.000000000000000000, 5.000000000000000888 ) ) ;
#300 = EDGE_CURVE ( 'NONE', #331, #219, #34, .T. ) ;
#301 = FACE_BOUND ( 'NONE', #221, .T. ) ;
#302 = APPROVAL ( #215, 'UNSPECIFIED' ) ;
#303 = PERSON_AND_ORGANIZATION_ROLE ( 'design_supplier' ) ;
#304 = CARTESIAN_POINT ( 'NONE',  ( 1.250000000000000444, 0.000000000000000000, 5.000000000000000000 ) ) ;
#305 = PLANE ( 'NONE',  #254 ) ;
#306 = ORIENTED_EDGE ( 'NONE', *, *, #48, .F. ) ;
#307 = DIRECTION ( 'NONE',  ( -1.000000000000000000, -0.000000000000000000, -0.000000000000000000 ) ) ;
#308 = AXIS2_PLACEMENT_3D ( 'NONE', #256, #99, #66 ) ;
#309 = FACE_BOUND ( 'NONE', #76, .T. ) ;
#310 = LINE ( 'NONE', #16, #210 ) ;
#311 = ORIENTED_EDGE ( 'NONE', *, *, #33, .F. ) ;
#312 =( NAMED_UNIT ( * ) SI_UNIT ( $, .STERADIAN. ) SOLID_ANGLE_UNIT ( ) );
#313 = VERTEX_POINT ( 'NONE', #295 ) ;
#314 = FACE_OUTER_BOUND ( 'NONE', #29, .T. ) ;
#315 = EDGE_CURVE ( 'NONE', #206, #313, #5, .T. ) ;
#316 = EDGE_LOOP ( 'NONE', ( #26, #157 ) ) ;
#317 = ORIENTED_EDGE ( 'NONE', *, *, #198, .F. ) ;
#318 = ORIENTED_EDGE ( 'NONE', *, *, #38, .F. ) ;
#319 = DIRECTION ( 'NONE',  ( -1.000000000000000000, -0.000000000000000000, -0.000000000000000000 ) ) ;
#320 = DIRECTION ( 'NONE',  ( 0.000000000000000000, 0.000000000000000000, 1.000000000000000000 ) ) ;
#321 = EDGE_CURVE ( 'NONE', #183, #98, #138, .T. ) ;
#322 = CARTESIAN_POINT ( 'NONE',  ( 3.000000000000000000, 0.000000000000000000, 5.000000000000001776 ) ) ;
#323 = AXIS2_PLACEMENT_3D ( 'NONE', #49, #152, #212 ) ;
#324 = CARTESIAN_POINT ( 'NONE',  ( -3.000000000000000000, 5.000000000000000000, 0.000000000000000000 ) ) ;
#325 = DESIGN_CONTEXT ( 'detailed design', #93, 'design' ) ;
#326 = SHAPE_DEFINITION_REPRESENTATION ( #216, #118 ) ;
#327 = DIRECTION ( 'NONE',  ( 0.000000000000000000, 0.000000000000000000, 1.000000000000000000 ) ) ;
#328 = DIRECTION ( 'NONE',  ( 0.000000000000000000, 0.000000000000000000, 1.000000000000000000 ) ) ;
#329 = CYLINDRICAL_SURFACE ( 'NONE', #240, 12.69999999999999929 ) ;
#330 = ORIENTED_EDGE ( 'NONE', *, *, #239, .T. ) ;
#331 = VERTEX_POINT ( 'NONE', #74 ) ;
#332 = DIRECTION ( 'NONE',  ( 0.000000000000000000, 0.000000000000000000, 1.000000000000000000 ) ) ;
#333 = VECTOR ( 'NONE', #222, 1000.000000000000000 ) ;
#334 = DIRECTION ( 'NONE',  ( -1.000000000000000000, -0.000000000000000000, -0.000000000000000000 ) ) ;
#335 = DIRECTION ( 'NONE',  ( 0.000000000000000000, 0.000000000000000000, 1.000000000000000000 ) ) ;
ENDSEC;
END-ISO-10303-21;
